ISO-10303-21;
HEADER;
/* Generated by software containing ST-Developer
 * from STEP Tools, Inc. (www.steptools.com) 
 */
/* OPTION: using custom schema-name function */

FILE_DESCRIPTION(
/* description */ (''),
/* implementation_level */ '2;1');

FILE_NAME(
/* name */ 'EX-D31Q.stp',
/* time_stamp */ '2023-04-10T09:53:16+08:00',
/* author */ (''),
/* organization */ (''),
/* preprocessor_version */ 'ST-DEVELOPER v16.7',
/* originating_system */ 'SIEMENS PLM Software NX 12.0',
/* authorisation */ '');

FILE_SCHEMA (('AUTOMOTIVE_DESIGN { 1 0 10303 214 3 1 1 1 }'));
ENDSEC;

DATA;
#10=SHAPE_REPRESENTATION_RELATIONSHIP('None',
'relationship between EX-D31Q-None and EX-D31Q-None',#22,#11);
#11=ADVANCED_BREP_SHAPE_REPRESENTATION('EX-D31Q-None',(#39,#40),#260);
#12=SHAPE_DEFINITION_REPRESENTATION(#13,#22);
#13=PRODUCT_DEFINITION_SHAPE('','',#14);
#14=PRODUCT_DEFINITION(' ','',#16,#15);
#15=PRODUCT_DEFINITION_CONTEXT('part definition',#21,'design');
#16=PRODUCT_DEFINITION_FORMATION_WITH_SPECIFIED_SOURCE(' ',' ',#18,
 .NOT_KNOWN.);
#17=PRODUCT_RELATED_PRODUCT_CATEGORY('part','',(#18));
#18=PRODUCT('EX-D31Q','EX-D31Q',' ',(#19));
#19=PRODUCT_CONTEXT(' ',#21,'mechanical');
#20=APPLICATION_PROTOCOL_DEFINITION('international standard',
'automotive_design',2010,#21);
#21=APPLICATION_CONTEXT(
'core data for automotive mechanical design processes');
#22=SHAPE_REPRESENTATION('EX-D31Q-None',(#157),#260);
#23=PRESENTATION_LAYER_ASSIGNMENT('1','Layer 1',(#39,#40));
#24=STYLED_ITEM('',(#26),#39);
#25=STYLED_ITEM('',(#27),#40);
#26=PRESENTATION_STYLE_ASSIGNMENT((#28));
#27=PRESENTATION_STYLE_ASSIGNMENT((#29));
#28=SURFACE_STYLE_USAGE(.BOTH.,#30);
#29=SURFACE_STYLE_USAGE(.BOTH.,#31);
#30=SURFACE_SIDE_STYLE('',(#32));
#31=SURFACE_SIDE_STYLE('',(#33));
#32=SURFACE_STYLE_FILL_AREA(#34);
#33=SURFACE_STYLE_FILL_AREA(#35);
#34=FILL_AREA_STYLE('',(#36));
#35=FILL_AREA_STYLE('',(#37));
#36=FILL_AREA_STYLE_COLOUR('',#38);
#37=FILL_AREA_STYLE_COLOUR('',#38);
#38=COLOUR_RGB('Orange',1.,0.6,0.);
#39=MANIFOLD_SOLID_BREP('',#41);
#40=MANIFOLD_SOLID_BREP('',#42);
#41=CLOSED_SHELL('',(#64,#65,#66,#67,#68,#69));
#42=CLOSED_SHELL('',(#70,#71,#72,#73));
#43=LINE('',#236,#47);
#44=LINE('',#240,#48);
#45=LINE('',#248,#49);
#46=LINE('',#252,#50);
#47=VECTOR('',#194,1.);
#48=VECTOR('',#197,1.);
#49=VECTOR('',#208,1.);
#50=VECTOR('',#211,1.);
#51=PLANE('',#161);
#52=PLANE('',#164);
#53=PLANE('',#169);
#54=PLANE('',#176);
#55=PLANE('',#177);
#56=FACE_OUTER_BOUND('',#85,.T.);
#57=FACE_OUTER_BOUND('',#88,.T.);
#58=FACE_OUTER_BOUND('',#89,.T.);
#59=FACE_OUTER_BOUND('',#90,.T.);
#60=FACE_OUTER_BOUND('',#91,.T.);
#61=FACE_OUTER_BOUND('',#92,.T.);
#62=FACE_OUTER_BOUND('',#93,.T.);
#63=FACE_OUTER_BOUND('',#94,.T.);
#64=ADVANCED_FACE('',(#79,#80),#74,.T.);
#65=ADVANCED_FACE('',(#56),#51,.T.);
#66=ADVANCED_FACE('',(#81,#82),#52,.F.);
#67=ADVANCED_FACE('',(#57),#75,.F.);
#68=ADVANCED_FACE('',(#58),#76,.F.);
#69=ADVANCED_FACE('',(#59),#53,.T.);
#70=ADVANCED_FACE('',(#60),#77,.T.);
#71=ADVANCED_FACE('',(#61),#78,.T.);
#72=ADVANCED_FACE('',(#62),#54,.F.);
#73=ADVANCED_FACE('',(#63),#55,.T.);
#74=CYLINDRICAL_SURFACE('',#160,1.5);
#75=CYLINDRICAL_SURFACE('',#166,0.25);
#76=CYLINDRICAL_SURFACE('',#168,0.25);
#77=CYLINDRICAL_SURFACE('',#172,0.25);
#78=CYLINDRICAL_SURFACE('',#175,0.25);
#79=FACE_BOUND('',#83,.T.);
#80=FACE_BOUND('',#84,.T.);
#81=FACE_BOUND('',#86,.T.);
#82=FACE_BOUND('',#87,.T.);
#83=EDGE_LOOP('',(#95));
#84=EDGE_LOOP('',(#96));
#85=EDGE_LOOP('',(#97));
#86=EDGE_LOOP('',(#98,#99));
#87=EDGE_LOOP('',(#100));
#88=EDGE_LOOP('',(#101,#102,#103,#104));
#89=EDGE_LOOP('',(#105,#106,#107,#108));
#90=EDGE_LOOP('',(#109,#110));
#91=EDGE_LOOP('',(#111,#112,#113,#114));
#92=EDGE_LOOP('',(#115,#116,#117,#118));
#93=EDGE_LOOP('',(#119,#120));
#94=EDGE_LOOP('',(#121,#122));
#95=ORIENTED_EDGE('',*,*,#133,.F.);
#96=ORIENTED_EDGE('',*,*,#134,.T.);
#97=ORIENTED_EDGE('',*,*,#133,.T.);
#98=ORIENTED_EDGE('',*,*,#135,.F.);
#99=ORIENTED_EDGE('',*,*,#136,.F.);
#100=ORIENTED_EDGE('',*,*,#134,.F.);
#101=ORIENTED_EDGE('',*,*,#136,.T.);
#102=ORIENTED_EDGE('',*,*,#137,.T.);
#103=ORIENTED_EDGE('',*,*,#138,.T.);
#104=ORIENTED_EDGE('',*,*,#139,.T.);
#105=ORIENTED_EDGE('',*,*,#135,.T.);
#106=ORIENTED_EDGE('',*,*,#139,.F.);
#107=ORIENTED_EDGE('',*,*,#140,.T.);
#108=ORIENTED_EDGE('',*,*,#137,.F.);
#109=ORIENTED_EDGE('',*,*,#138,.F.);
#110=ORIENTED_EDGE('',*,*,#140,.F.);
#111=ORIENTED_EDGE('',*,*,#141,.F.);
#112=ORIENTED_EDGE('',*,*,#142,.T.);
#113=ORIENTED_EDGE('',*,*,#143,.T.);
#114=ORIENTED_EDGE('',*,*,#144,.T.);
#115=ORIENTED_EDGE('',*,*,#145,.F.);
#116=ORIENTED_EDGE('',*,*,#144,.F.);
#117=ORIENTED_EDGE('',*,*,#146,.T.);
#118=ORIENTED_EDGE('',*,*,#142,.F.);
#119=ORIENTED_EDGE('',*,*,#143,.F.);
#120=ORIENTED_EDGE('',*,*,#146,.F.);
#121=ORIENTED_EDGE('',*,*,#141,.T.);
#122=ORIENTED_EDGE('',*,*,#145,.T.);
#123=VERTEX_POINT('',#226);
#124=VERTEX_POINT('',#228);
#125=VERTEX_POINT('',#232);
#126=VERTEX_POINT('',#233);
#127=VERTEX_POINT('',#237);
#128=VERTEX_POINT('',#239);
#129=VERTEX_POINT('',#246);
#130=VERTEX_POINT('',#247);
#131=VERTEX_POINT('',#249);
#132=VERTEX_POINT('',#251);
#133=EDGE_CURVE('',#123,#123,#147,.T.);
#134=EDGE_CURVE('',#124,#124,#148,.T.);
#135=EDGE_CURVE('',#125,#126,#149,.T.);
#136=EDGE_CURVE('',#126,#125,#150,.T.);
#137=EDGE_CURVE('',#125,#127,#43,.T.);
#138=EDGE_CURVE('',#127,#128,#151,.T.);
#139=EDGE_CURVE('',#128,#126,#44,.T.);
#140=EDGE_CURVE('',#128,#127,#152,.T.);
#141=EDGE_CURVE('',#129,#130,#153,.T.);
#142=EDGE_CURVE('',#129,#131,#45,.T.);
#143=EDGE_CURVE('',#131,#132,#154,.T.);
#144=EDGE_CURVE('',#132,#130,#46,.T.);
#145=EDGE_CURVE('',#130,#129,#155,.T.);
#146=EDGE_CURVE('',#132,#131,#156,.T.);
#147=CIRCLE('',#158,1.5);
#148=CIRCLE('',#159,1.5);
#149=CIRCLE('',#162,0.25);
#150=CIRCLE('',#163,0.25);
#151=CIRCLE('',#165,0.25);
#152=CIRCLE('',#167,0.25);
#153=CIRCLE('',#170,0.25);
#154=CIRCLE('',#171,0.25);
#155=CIRCLE('',#173,0.25);
#156=CIRCLE('',#174,0.25);
#157=AXIS2_PLACEMENT_3D('',#224,#178,#179);
#158=AXIS2_PLACEMENT_3D('',#225,#180,#181);
#159=AXIS2_PLACEMENT_3D('',#227,#182,#183);
#160=AXIS2_PLACEMENT_3D('',#229,#184,#185);
#161=AXIS2_PLACEMENT_3D('',#230,#186,#187);
#162=AXIS2_PLACEMENT_3D('',#231,#188,#189);
#163=AXIS2_PLACEMENT_3D('',#234,#190,#191);
#164=AXIS2_PLACEMENT_3D('',#235,#192,#193);
#165=AXIS2_PLACEMENT_3D('',#238,#195,#196);
#166=AXIS2_PLACEMENT_3D('',#241,#198,#199);
#167=AXIS2_PLACEMENT_3D('',#242,#200,#201);
#168=AXIS2_PLACEMENT_3D('',#243,#202,#203);
#169=AXIS2_PLACEMENT_3D('',#244,#204,#205);
#170=AXIS2_PLACEMENT_3D('',#245,#206,#207);
#171=AXIS2_PLACEMENT_3D('',#250,#209,#210);
#172=AXIS2_PLACEMENT_3D('',#253,#212,#213);
#173=AXIS2_PLACEMENT_3D('',#254,#214,#215);
#174=AXIS2_PLACEMENT_3D('',#255,#216,#217);
#175=AXIS2_PLACEMENT_3D('',#256,#218,#219);
#176=AXIS2_PLACEMENT_3D('',#257,#220,#221);
#177=AXIS2_PLACEMENT_3D('',#258,#222,#223);
#178=DIRECTION('',(0.,0.,1.));
#179=DIRECTION('',(1.,0.,0.));
#180=DIRECTION('',(1.,0.,0.));
#181=DIRECTION('',(0.,1.,-6.12323399573677E-17));
#182=DIRECTION('',(1.,0.,0.));
#183=DIRECTION('',(0.,1.,-6.12323399573677E-17));
#184=DIRECTION('',(-1.,0.,0.));
#185=DIRECTION('',(0.,0.,1.));
#186=DIRECTION('',(1.,0.,0.));
#187=DIRECTION('',(0.,0.,-1.));
#188=DIRECTION('',(-1.,0.,0.));
#189=DIRECTION('',(0.,0.,1.));
#190=DIRECTION('',(-1.,0.,0.));
#191=DIRECTION('',(0.,0.,1.));
#192=DIRECTION('',(1.,0.,0.));
#193=DIRECTION('',(0.,0.,-1.));
#194=DIRECTION('',(1.,0.,0.));
#195=DIRECTION('',(1.,0.,0.));
#196=DIRECTION('',(0.,0.,1.));
#197=DIRECTION('',(-1.,0.,0.));
#198=DIRECTION('',(-1.,0.,0.));
#199=DIRECTION('',(0.,0.,1.));
#200=DIRECTION('',(1.,0.,0.));
#201=DIRECTION('',(0.,0.,1.));
#202=DIRECTION('',(-1.,0.,0.));
#203=DIRECTION('',(0.,0.,1.));
#204=DIRECTION('',(-1.,0.,0.));
#205=DIRECTION('',(0.,0.,1.));
#206=DIRECTION('',(1.,0.,0.));
#207=DIRECTION('',(0.,1.,-6.12323399573677E-17));
#208=DIRECTION('',(-1.,0.,0.));
#209=DIRECTION('',(1.,0.,0.));
#210=DIRECTION('',(0.,1.,-6.12323399573677E-17));
#211=DIRECTION('',(1.,0.,0.));
#212=DIRECTION('',(1.,0.,0.));
#213=DIRECTION('',(0.,0.,-1.));
#214=DIRECTION('',(1.,0.,0.));
#215=DIRECTION('',(0.,1.,-6.12323399573677E-17));
#216=DIRECTION('',(1.,0.,0.));
#217=DIRECTION('',(0.,1.,-6.12323399573677E-17));
#218=DIRECTION('',(1.,0.,0.));
#219=DIRECTION('',(0.,0.,-1.));
#220=DIRECTION('',(1.,0.,0.));
#221=DIRECTION('',(0.,0.,-1.));
#222=DIRECTION('',(1.,0.,0.));
#223=DIRECTION('',(0.,0.,-1.));
#224=CARTESIAN_POINT('',(0.,0.,0.));
#225=CARTESIAN_POINT('',(15.,0.,0.));
#226=CARTESIAN_POINT('',(15.,1.5,-9.18485099360515E-17));
#227=CARTESIAN_POINT('',(0.,0.,0.));
#228=CARTESIAN_POINT('',(0.,1.5,-9.18485099360515E-17));
#229=CARTESIAN_POINT('',(15.,0.,0.));
#230=CARTESIAN_POINT('',(15.,0.,0.));
#231=CARTESIAN_POINT('',(0.,0.245,0.));
#232=CARTESIAN_POINT('',(0.,-4.08202117940792E-14,0.04974937185513));
#233=CARTESIAN_POINT('',(0.,-1.11672823766007E-14,-0.049749371855386));
#234=CARTESIAN_POINT('',(0.,-0.245,0.));
#235=CARTESIAN_POINT('',(0.,0.,0.));
#236=CARTESIAN_POINT('',(0.05,4.43438688546571E-14,0.0497493718551127));
#237=CARTESIAN_POINT('',(0.05,4.43438688546571E-14,0.0497493718551127));
#238=CARTESIAN_POINT('',(0.05,-0.245,0.));
#239=CARTESIAN_POINT('',(0.05,-1.11672823766007E-14,-0.049749371855386));
#240=CARTESIAN_POINT('',(0.05,-1.11672823766007E-14,-0.049749371855386));
#241=CARTESIAN_POINT('',(0.05,-0.245,0.));
#242=CARTESIAN_POINT('',(0.05,0.245,0.));
#243=CARTESIAN_POINT('',(0.05,0.245,0.));
#244=CARTESIAN_POINT('',(0.05,0.,0.));
#245=CARTESIAN_POINT('',(35.,-0.245,2.71050543121376E-16));
#246=CARTESIAN_POINT('',(35.,-1.49511479585751E-13,0.0497493718560679));
#247=CARTESIAN_POINT('',(35.,-1.49619899803E-13,-0.0497493718560678));
#248=CARTESIAN_POINT('',(15.,-1.49511479585751E-13,0.0497493718560679));
#249=CARTESIAN_POINT('',(15.,-1.49511479585751E-13,0.0497493718560679));
#250=CARTESIAN_POINT('',(15.,-0.245,2.71050543121376E-16));
#251=CARTESIAN_POINT('',(15.,-1.49619899803E-13,-0.0497493718560678));
#252=CARTESIAN_POINT('',(15.,-1.49619899803E-13,-0.0497493718560678));
#253=CARTESIAN_POINT('',(15.,-0.245,2.71050543121376E-16));
#254=CARTESIAN_POINT('',(35.,0.245,-2.71050543121376E-16));
#255=CARTESIAN_POINT('',(15.,0.245,-2.71050543121376E-16));
#256=CARTESIAN_POINT('',(15.,0.245,-2.71050543121376E-16));
#257=CARTESIAN_POINT('',(15.,0.,0.));
#258=CARTESIAN_POINT('',(35.,0.,0.));
#259=MECHANICAL_DESIGN_GEOMETRIC_PRESENTATION_REPRESENTATION('',(#24,#25),
#260);
#260=(
GEOMETRIC_REPRESENTATION_CONTEXT(3)
GLOBAL_UNCERTAINTY_ASSIGNED_CONTEXT((#261))
GLOBAL_UNIT_ASSIGNED_CONTEXT((#267,#263,#262))
REPRESENTATION_CONTEXT('EX-D31Q','TOP_LEVEL_ASSEMBLY_PART')
);
#261=UNCERTAINTY_MEASURE_WITH_UNIT(LENGTH_MEASURE(2.E-5),#267,
'DISTANCE_ACCURACY_VALUE','Maximum Tolerance applied to model');
#262=(
NAMED_UNIT(*)
SI_UNIT($,.STERADIAN.)
SOLID_ANGLE_UNIT()
);
#263=(
CONVERSION_BASED_UNIT('DEGREE',#265)
NAMED_UNIT(#264)
PLANE_ANGLE_UNIT()
);
#264=DIMENSIONAL_EXPONENTS(0.,0.,0.,0.,0.,0.,0.);
#265=PLANE_ANGLE_MEASURE_WITH_UNIT(PLANE_ANGLE_MEASURE(0.0174532925),#266);
#266=(
NAMED_UNIT(*)
PLANE_ANGLE_UNIT()
SI_UNIT($,.RADIAN.)
);
#267=(
LENGTH_UNIT()
NAMED_UNIT(*)
SI_UNIT(.MILLI.,.METRE.)
);
ENDSEC;
END-ISO-10303-21;
